  0
SECTION
  2
HEADER
  9
$ACADVER
  1
AC1015
  9
$ACADMAINTVER
 70
    13
  9
$DWGCODEPAGE
  3
ANSI_1252
  9
$INSBASE
 10
0.0
 20
0.0
 30
0.0
  9
$EXTMIN
 10
-19.44723047256252
 20
-30.45281528045416
 30
-0.0015258207003583
  9
$EXTMAX
 10
961.3588980580095
 20
345.927410960026
 30
0.0000000349246037
  9
$LIMMIN
 10
0.0
 20
0.0
  9
$LIMMAX
 10
420.0
 20
297.0
  9
$ORTHOMODE
 70
     0
  9
$REGENMODE
 70
     1
  9
$FILLMODE
 70
     1
  9
$QTEXTMODE
 70
     0
  9
$MIRRTEXT
 70
     1
  9
$LTSCALE
 40
1.0
  9
$ATTMODE
 70
     1
  9
$TEXTSIZE
 40
16.70171093586998
  9
$TRACEWID
 40
1.0
  9
$TEXTSTYLE
  7
Standard
  9
$CLAYER
  8
0
  9
$CELTYPE
  6
ByLayer
  9
$CECOLOR
 62
   256
  9
$CELTSCALE
 40
1.0
  9
$DISPSILH
 70
     0
  9
$DIMSCALE
 40
1.0
  9
$DIMASZ
 40
2.5
  9
$DIMEXO
 40
0.625
  9
$DIMDLI
 40
3.75
  9
$DIMRND
 40
0.0
  9
$DIMDLE
 40
0.0
  9
$DIMEXE
 40
1.25
  9
$DIMTP
 40
0.0
  9
$DIMTM
 40
0.0
  9
$DIMTXT
 40
2.5
  9
$DIMCEN
 40
2.5
  9
$DIMTSZ
 40
0.0
  9
$DIMTOL
 70
     0
  9
$DIMLIM
 70
     0
  9
$DIMTIH
 70
     0
  9
$DIMTOH
 70
     0
  9
$DIMSE1
 70
     0
  9
$DIMSE2
 70
     0
  9
$DIMTAD
 70
     1
  9
$DIMZIN
 70
     8
  9
$DIMBLK
  1

  9
$DIMASO
 70
     1
  9
$DIMSHO
 70
     1
  9
$DIMPOST
  1

  9
$DIMAPOST
  1

  9
$DIMALT
 70
     0
  9
$DIMALTD
 70
     3
  9
$DIMALTF
 40
0.03937007874016
  9
$DIMLFAC
 40
1.0
  9
$DIMTOFL
 70
     1
  9
$DIMTVP
 40
0.0
  9
$DIMTIX
 70
     0
  9
$DIMSOXD
 70
     0
  9
$DIMSAH
 70
     0
  9
$DIMBLK1
  1

  9
$DIMBLK2
  1

  9
$DIMSTYLE
  2
ISO-25
  9
$DIMCLRD
 70
     0
  9
$DIMCLRE
 70
     0
  9
$DIMCLRT
 70
     0
  9
$DIMTFAC
 40
1.0
  9
$DIMGAP
 40
0.625
  9
$DIMJUST
 70
     0
  9
$DIMSD1
 70
     0
  9
$DIMSD2
 70
     0
  9
$DIMTOLJ
 70
     0
  9
$DIMTZIN
 70
     8
  9
$DIMALTZ
 70
     0
  9
$DIMALTTZ
 70
     0
  9
$DIMUPT
 70
     0
  9
$DIMDEC
 70
     2
  9
$DIMTDEC
 70
     2
  9
$DIMALTU
 70
     2
  9
$DIMALTTD
 70
     3
  9
$DIMTXSTY
  7
Standard
  9
$DIMAUNIT
 70
     0
  9
$DIMADEC
 70
     0
  9
$DIMALTRND
 40
0.0
  9
$DIMAZIN
 70
     0
  9
$DIMDSEP
 70
    44
  9
$DIMATFIT
 70
     3
  9
$DIMFRAC
 70
     0
  9
$DIMLDRBLK
  1

  9
$DIMLUNIT
 70
     2
  9
$DIMLWD
 70
    -2
  9
$DIMLWE
 70
    -2
  9
$DIMTMOVE
 70
     0
  9
$LUNITS
 70
     2
  9
$LUPREC
 70
     4
  9
$SKETCHINC
 40
1.0
  9
$FILLETRAD
 40
10.0
  9
$AUNITS
 70
     0
  9
$AUPREC
 70
     0
  9
$MENU
  1
.
  9
$ELEVATION
 40
0.0
  9
$PELEVATION
 40
0.0
  9
$THICKNESS
 40
0.0
  9
$LIMCHECK
 70
     0
  9
$CHAMFERA
 40
10.0
  9
$CHAMFERB
 40
10.0
  9
$CHAMFERC
 40
20.0
  9
$CHAMFERD
 40
0.0
  9
$SKPOLY
 70
     0
  9
$TDCREATE
 40
2452098.617121296
  9
$TDUCREATE
 40
2452098.450454629
  9
$TDUPDATE
 40
2451814.663625115
  9
$TDUUPDATE
 40
2451814.496958449
  9
$TDINDWG
 40
-1094.9442236921
  9
$TDUSRTIMER
 40
-1094.9445754282
  9
$USRTIMER
 70
     1
  9
$ANGBASE
 50
0.0
  9
$ANGDIR
 70
     0
  9
$PDMODE
 70
     0
  9
$PDSIZE
 40
0.0
  9
$PLINEWID
 40
3.0
  9
$SPLFRAME
 70
     0
  9
$SPLINETYPE
 70
     6
  9
$SPLINESEGS
 70
     8
  9
$HANDSEED
  5
1F6
  9
$SURFTAB1
 70
     6
  9
$SURFTAB2
 70
     6
  9
$SURFTYPE
 70
     6
  9
$SURFU
 70
     6
  9
$SURFV
 70
     6
  9
$UCSBASE
  2

  9
$UCSNAME
  2

  9
$UCSORG
 10
0.0
 20
0.0
 30
0.0
  9
$UCSXDIR
 10
1.0
 20
0.0
 30
0.0
  9
$UCSYDIR
 10
0.0
 20
1.0
 30
0.0
  9
$UCSORTHOREF
  2

  9
$UCSORTHOVIEW
 70
     0
  9
$UCSORGTOP
 10
0.0
 20
0.0
 30
0.0
  9
$UCSORGBOTTOM
 10
0.0
 20
0.0
 30
0.0
  9
$UCSORGLEFT
 10
0.0
 20
0.0
 30
0.0
  9
$UCSORGRIGHT
 10
0.0
 20
0.0
 30
0.0
  9
$UCSORGFRONT
 10
0.0
 20
0.0
 30
0.0
  9
$UCSORGBACK
 10
0.0
 20
0.0
 30
0.0
  9
$PUCSBASE
  2

  9
$PUCSNAME
  2

  9
$PUCSORG
 10
0.0
 20
0.0
 30
0.0
  9
$PUCSXDIR
 10
1.0
 20
0.0
 30
0.0
  9
$PUCSYDIR
 10
0.0
 20
1.0
 30
0.0
  9
$PUCSORTHOREF
  2

  9
$PUCSORTHOVIEW
 70
     0
  9
$PUCSORGTOP
 10
0.0
 20
0.0
 30
0.0
  9
$PUCSORGBOTTOM
 10
0.0
 20
0.0
 30
0.0
  9
$PUCSORGLEFT
 10
0.0
 20
0.0
 30
0.0
  9
$PUCSORGRIGHT
 10
0.0
 20
0.0
 30
0.0
  9
$PUCSORGFRONT
 10
0.0
 20
0.0
 30
0.0
  9
$PUCSORGBACK
 10
0.0
 20
0.0
 30
0.0
  9
$USERI1
 70
     0
  9
$USERI2
 70
     0
  9
$USERI3
 70
     0
  9
$USERI4
 70
     0
  9
$USERI5
 70
     0
  9
$USERR1
 40
0.0
  9
$USERR2
 40
0.0
  9
$USERR3
 40
0.0
  9
$USERR4
 40
0.0
  9
$USERR5
 40
0.0
  9
$WORLDVIEW
 70
     1
  9
$SHADEDGE
 70
     3
  9
$SHADEDIF
 70
    70
  9
$TILEMODE
 70
     1
  9
$MAXACTVP
 70
    64
  9
$PINSBASE
 10
0.0
 20
0.0
 30
0.0
  9
$PLIMCHECK
 70
     0
  9
$PEXTMIN
 10
1.000000000000000E+20
 20
1.000000000000000E+20
 30
1.000000000000000E+20
  9
$PEXTMAX
 10
-1.000000000000000E+20
 20
-1.000000000000000E+20
 30
-1.000000000000000E+20
  9
$PLIMMIN
 10
0.0
 20
0.0
  9
$PLIMMAX
 10
420.0
 20
297.0
  9
$UNITMODE
 70
     0
  9
$VISRETAIN
 70
     1
  9
$PLINEGEN
 70
     0
  9
$PSLTSCALE
 70
     1
  9
$TREEDEPTH
 70
  3020
  9
$CMLSTYLE
  2
Standard
  9
$CMLJUST
 70
     0
  9
$CMLSCALE
 40
20.0
  9
$PROXYGRAPHICS
 70
     1
  9
$MEASUREMENT
 70
     1
  9
$CELWEIGHT
370
    -1
  9
$ENDCAPS
280
     0
  9
$JOINSTYLE
280
     0
  9
$LWDISPLAY
290
     0
  9
$INSUNITS
 70
     4
  9
$HYPERLINKBASE
  1

  9
$STYLESHEET
  1

  9
$XEDIT
290
     1
  9
$CEPSNTYPE
380
     0
  9
$PSTYLEMODE
290
     1
  9
$FINGERPRINTGUID
  2
{87CCE500-72EF-11D5-9FEE-444553540001}
  9
$VERSIONGUID
  2
{EF551726-B295-11D5-A44D-008048CA15C4}
  9
$EXTNAMES
290
     1
  9
$PSVPSCALE
 40
0.0
  9
$OLESTARTUP
290
     0
  0
ENDSEC
  0
SECTION
  2
CLASSES
  0
CLASS
  1
ACDBDICTIONARYWDFLT
  2
AcDbDictionaryWithDefault
  3
AutoCAD 2000
 90
        0
280
     0
281
     0
  0
CLASS
  1
ACDBPLACEHOLDER
  2
AcDbPlaceHolder
  3
AutoCAD 2000
 90
        0
280
     0
281
     0
  0
CLASS
  1
LAYOUT
  2
AcDbLayout
  3
AutoCAD 2000
 90
        0
280
     0
281
     0
  0
CLASS
  1
DICTIONARYVAR
  2
AcDbDictionaryVar
  3
AutoCAD 2000
 90
        0
280
     0
281
     0
  0
ENDSEC
  0
SECTION
  2
TABLES
  0
TABLE
  2
VPORT
  5
8
330
0
100
AcDbSymbolTable
 70
     3
  0
VPORT
  5
1F5
330
8
100
AcDbSymbolTableRecord
100
AcDbViewportTableRecord
  2
*Active
 70
     0
 10
0.0
 20
0.0
 11
1.0
 21
1.0
 12
470.9558337927234
 22
157.7372978397859
 13
0.0
 23
0.0
 14
10.0
 24
10.0
 15
10.0
 25
10.0
 16
0.0
 26
0.0
 36
1.0
 17
0.0
 27
0.0
 37
0.0
 40
556.5138564063142
 41
1.776960784313725
 42
50.0
 43
0.0
 44
0.0
 50
0.0
 51
0.0
 71
     0
 72
   100
 73
     1
 74
     2
 75
     0
 76
     0
 77
     0
 78
     0
281
     0
 65
     1
110
0.0
120
0.0
130
0.0
111
1.0
121
0.0
131
0.0
112
0.0
122
1.0
132
0.0
 79
     0
146
0.0
  0
ENDTAB
  0
TABLE
  2
LTYPE
  5
5
330
0
100
AcDbSymbolTable
 70
     4
  0
LTYPE
  5
14
330
5
100
AcDbSymbolTableRecord
100
AcDbLinetypeTableRecord
  2
ByBlock
 70
     0
  3

 72
    65
 73
     0
 40
0.0
  0
LTYPE
  5
15
330
5
100
AcDbSymbolTableRecord
100
AcDbLinetypeTableRecord
  2
ByLayer
 70
     0
  3

 72
    65
 73
     0
 40
0.0
  0
LTYPE
  5
16
330
5
100
AcDbSymbolTableRecord
100
AcDbLinetypeTableRecord
  2
Continuous
 70
     0
  3
Solid line
 72
    65
 73
     0
 40
0.0
  0
LTYPE
  5
190
330
5
100
AcDbSymbolTableRecord
100
AcDbLinetypeTableRecord
  2
DASHED
 70
     0
  3
Dashed __ __ __ __ __ __ __ __ __ __ __ __ __ _
 72
    65
 73
     2
 40
19.04999999999997
 49
12.7
 74
     0
 49
-6.349999999999997
 74
     0
  0
LTYPE
  5
191
330
5
100
AcDbSymbolTableRecord
100
AcDbLinetypeTableRecord
  2
DIVIDE
 70
     0
  3
Divide ____ . . ____ . . ____ . . ____ . . ____
 72
    65
 73
     6
 40
31.74999999999998
 49
12.7
 74
     0
 49
-6.349999999999997
 74
     0
 49
0.0
 74
     0
 49
-6.349999999999997
 74
     0
 49
0.0
 74
     0
 49
-6.349999999999997
 74
     0
  0
LTYPE
  5
192
330
5
100
AcDbSymbolTableRecord
100
AcDbLinetypeTableRecord
  2
DOT
 70
     0
  3
Dot . . . . . . . . . . . . . . . . . . . . . .
 72
    65
 73
     2
 40
6.349999999999997
 49
0.0
 74
     0
 49
-6.349999999999997
 74
     0
  0
ENDTAB
  0
TABLE
  2
LAYER
  5
2
330
0
100
AcDbSymbolTable
 70
     8
  0
LAYER
  5
10
330
2
100
AcDbSymbolTableRecord
100
AcDbLayerTableRecord
  2
0
 70
     0
 62
     7
  6
Continuous
370
    -3
390
F
  0
LAYER
  5
177
330
2
100
AcDbSymbolTableRecord
100
AcDbLayerTableRecord
  2
magenta
 70
     0
 62
     6
  6
DASHED
370
    -3
390
F
  0
LAYER
  5
1BE
330
2
100
AcDbSymbolTableRecord
100
AcDbLayerTableRecord
  2
blue
 70
     0
 62
     5
  6
DIVIDE
370
    -3
390
F
  0
ENDTAB
  0
TABLE
  2
STYLE
  5
3
330
0
100
AcDbSymbolTable
 70
     2
  0
STYLE
  5
11
330
3
100
AcDbSymbolTableRecord
100
AcDbTextStyleTableRecord
  2
Standard
 70
     0
 40
0.0
 41
1.0
 50
0.0
 71
     0
 42
16.70171093586998
  3
txt
  4

  0
ENDTAB
  0
TABLE
  2
VIEW
  5
6
330
0
100
AcDbSymbolTable
 70
     0
  0
ENDTAB
  0
TABLE
  2
UCS
  5
7
330
0
100
AcDbSymbolTable
 70
     0
  0
ENDTAB
  0
TABLE
  2
APPID
  5
9
330
0
100
AcDbSymbolTable
 70
     1
  0
APPID
  5
12
330
9
100
AcDbSymbolTableRecord
100
AcDbRegAppTableRecord
  2
ACAD
 70
     0
  0
ENDTAB
  0
TABLE
  2
DIMSTYLE
  5
A
330
0
100
AcDbSymbolTable
 70
     1
100
AcDbDimStyleTable
 71
     0
  0
DIMSTYLE
105
27
330
A
100
AcDbSymbolTableRecord
100
AcDbDimStyleTableRecord
  2
ISO-25
 70
     0
 41
2.5
 42
0.625
 43
3.75
 44
1.25
 73
     0
 74
     0
 77
     1
 78
     8
140
2.5
141
2.5
143
0.03937007874016
147
0.625
171
     3
172
     1
271
     2
272
     2
274
     3
278
    44
283
     0
284
     8
340
11
  0
ENDTAB
  0
TABLE
  2
BLOCK_RECORD
  5
1
330
0
100
AcDbSymbolTable
 70
     4
  0
BLOCK_RECORD
  5
1F
330
1
100
AcDbSymbolTableRecord
100
AcDbBlockTableRecord
  2
*Model_Space
340
22
  0
BLOCK_RECORD
  5
1B
330
1
100
AcDbSymbolTableRecord
100
AcDbBlockTableRecord
  2
*Paper_Space
340
1E
  0
BLOCK_RECORD
  5
23
330
1
100
AcDbSymbolTableRecord
100
AcDbBlockTableRecord
  2
*Paper_Space0
340
26
  0
BLOCK_RECORD
  5
1C1
330
1
100
AcDbSymbolTableRecord
100
AcDbBlockTableRecord
  2
A$C50A11958
340
0
102
{BLKREFS
331
1F4
102
}
  0
ENDTAB
  0
ENDSEC
  0
SECTION
  2
BLOCKS
  0
BLOCK
  5
20
330
1F
100
AcDbEntity
  8
0
100
AcDbBlockBegin
  2
*Model_Space
 70
     0
 10
0.0
 20
0.0
 30
0.0
  3
*Model_Space
  1

  0
ENDBLK
  5
21
330
1F
100
AcDbEntity
  8
0
100
AcDbBlockEnd
  0
BLOCK
  5
1C
330
1B
100
AcDbEntity
 67
     1
  8
0
100
AcDbBlockBegin
  2
*Paper_Space
 70
     0
 10
0.0
 20
0.0
 30
0.0
  3
*Paper_Space
  1

  0
ENDBLK
  5
1D
330
1B
100
AcDbEntity
 67
     1
  8
0
100
AcDbBlockEnd
  0
BLOCK
  5
24
330
23
100
AcDbEntity
  8
0
100
AcDbBlockBegin
  2
*Paper_Space0
 70
     0
 10
0.0
 20
0.0
 30
0.0
  3
*Paper_Space0
  1

  0
ENDBLK
  5
25
330
23
100
AcDbEntity
  8
0
100
AcDbBlockEnd
  0
BLOCK
  5
1F2
330
1C1
100
AcDbEntity
  8
0
100
AcDbBlockBegin
  2
A$C50A11958
 70
     0
 10
0.0
 20
0.0
 30
0.0
  3
A$C50A11958
  1

  0
LINE
  5
1C2
330
1C1
100
AcDbEntity
  8
0
100
AcDbLine
 10
50.40794991126046
 20
78.00453903132981
 30
0.0
 11
291.3665984167198
 21
-0.0000004392370485
 31
0.0
  0
LINE
  5
1C3
330
1C1
100
AcDbEntity
  8
magenta
100
AcDbLine
 10
145.9774438796771
 20
52.26298061341664
 30
0.0
 11
155.372755694896
 21
61.65829242863516
 31
0.0
  0
LINE
  5
1C4
330
1C1
100
AcDbEntity
  8
magenta
100
AcDbLine
 10
135.8326081357732
 20
104.9799377169966
 30
0.0
 11
190.4251765992597
 21
159.572506180483
 31
0.0
  0
LINE
  5
1C5
330
1C1
100
AcDbEntity
  8
magenta
100
AcDbLine
 10
143.0999359798056
 20
121.2275216820981
 30
0.0
 11
184.5372991448895
 21
162.6648848471819
 31
0.0
  0
SPLINE
  5
1C6
330
1C1
100
AcDbEntity
  8
0
100
AcDbSpline
210
0.0
220
0.0
230
1.0
 70
     8
 71
     3
 72
    10
 73
     6
 74
     4
 42
0.0000000001
 43
0.0000000001
 44
0.0000000001
 40
0.0
 40
0.0
 40
0.0
 40
0.0
 40
53.77719976265928
 40
94.28906360206216
 40
131.7967694737339
 40
131.7967694737339
 40
131.7967694737339
 40
131.7967694737339
 10
80.93936675546245
 20
309.6500161559559
 30
0.0
 10
106.6916180761666
 20
311.4892372599819
 30
0.0
 10
151.8437582655146
 20
314.7139948974402
 30
0.0
 10
111.0106667620408
 20
258.067745837579
 30
0.0
 10
137.831443984899
 20
242.8820433959695
 30
0.0
 10
150.7254631015131
 20
235.5815563163315
 30
0.0
 11
80.93936675546245
 21
309.6500161559559
 31
0.0
 11
134.0058771602106
 21
300.9360797449123
 31
0.0
 11
123.8287382121433
 21
261.7233655494623
 31
0.0
 11
150.7254631015131
 21
235.5815563163315
 31
0.0
  0
LINE
  5
1C7
330
1C1
100
AcDbEntity
  8
0
100
AcDbLine
 10
183.4376956101268
 20
121.5742210865478
 30
0.0
 11
135.4597546794121
 21
104.1463482644605
 31
0.0
  0
LINE
  5
1C8
330
1C1
100
AcDbEntity
  8
0
100
AcDbLine
 10
135.4597546794121
 20
104.1463482644605
 30
0.0
 11
165.9911715236141
 21
172.4055171633889
 31
0.0
  0
LINE
  5
1C9
330
1C1
100
AcDbEntity
  8
0
100
AcDbLine
 10
184.1646349841179
 20
45.32727766279299
 30
0.0
 11
136.1866928246222
 21
54.0412140738366
 31
0.0
  0
LINE
  5
1CA
330
1C1
100
AcDbEntity
  8
0
100
AcDbLine
 10
136.1866928246222
 20
54.0412140738366
 30
0.0
 11
192.8878964129837
 21
76.55221664190936
 31
0.0
  0
ELLIPSE
  5
1CB
330
1C1
100
AcDbEntity
  8
0
100
AcDbEllipse
 10
183.0742265375215
 20
280.6035614524771
 30
0.0
 11
41.92873934994781
 21
-4.996859469103995
 31
0.0
210
0.0
220
0.0
230
1.0
 40
0.3636977591712052
 41
0.0
 42
6.283185307179584
  0
MTEXT
  5
1CC
330
1C1
100
AcDbEntity
  8
0
100
AcDbMText
 10
49.63947282965517
 20
376.3310298259434
 30
0.0
 40
16.70171093586998
 41
156.2917999999999
 71
     1
 72
     5
  1
sdfsdfsdfsdfs\Pdffsdfsdf
 73
     1
 44
1.0
  0
LWPOLYLINE
  5
1CD
330
1C1
100
AcDbEntity
  8
blue
100
AcDbPolyline
 90
        6
 70
     1
 43
3.0
 10
14.72958002208429
 20
235.4013060702682
 10
65.76592978627218
 20
179.5641072514199
 10
64.55077918827669
 20
143.148542603315
 42
-1.541015258735114
 10
17.15988327210675
 20
166.2117334700533
 10
35.38715045816479
 20
152.8593596886865
 42
1.843358517313878
 10
36.60230105616028
 20
174.7086987087343
 42
-0.746559577894176
  0
LWPOLYLINE
  5
1CE
330
1C1
100
AcDbEntity
  8
0
100
AcDbPolyline
 90
        4
 70
     1
 43
0.0
 10
120.194046257311
 20
153.5253219518813
 10
145.5988141481284
 20
199.2843677388329
 10
99.83976836117665
 20
224.6891356296502
 10
74.43500047035946
 20
178.9300898426986
  0
ARC
  5
1CF
330
1C1
100
AcDbEntity
  8
magenta
100
AcDbCircle
 10
63.01409555328024
 20
86.19849798767422
 30
0.0
 40
58.00506896094892
100
AcDbArc
 50
188.1209261236637
 51
50.58966352868993
  0
CIRCLE
  5
1D0
330
1C1
100
AcDbEntity
  8
magenta
100
AcDbCircle
 10
50.40794991126046
 20
78.00453903132981
 30
0.0
 40
21.50562342075521
  0
LINE
  5
1D1
330
1C1
100
AcDbEntity
  8
magenta
100
AcDbLine
 10
138.3775156427248
 20
53.64330849753347
 30
0.0
 11
140.4798531847815
 21
55.74564603959003
 31
0.0
  0
LINE
  5
1D2
330
1C1
100
AcDbEntity
  8
magenta
100
AcDbLine
 10
5.590693862103989
 20
78.00453903132987
 30
0.0
 11
50.40794991126046
 21
78.00453903132981
 31
0.0
  0
ARC
  5
1D3
330
1C1
100
AcDbEntity
  8
magenta
100
AcDbCircle
 10
105.7530857240649
 20
126.6388490969362
 30
0.0
 40
30.18221579329297
100
AcDbArc
 50
128.8912673582964
 51
242.2669761941545
  0
LINE
  5
1D4
330
1C1
100
AcDbEntity
  8
magenta
100
AcDbLine
 10
50.40794991126046
 20
78.00453903132981
 30
0.0
 11
91.70772259370847
 21
99.92379856864173
 31
0.0
  0
LINE
  5
1D5
330
1C1
100
AcDbEntity
  8
magenta
100
AcDbLine
 10
8.24551659978988
 20
317.6377913722892
 30
0.0
 11
82.39324427466398
 21
270.4373026520132
 31
0.0
  0
LINE
  5
1D6
330
1C1
100
AcDbEntity
  8
magenta
100
AcDbLine
 10
82.39324427466398
 20
270.4373026520132
 30
0.0
 11
87.48181374869757
 21
249.3786224733609
 31
0.0
  0
MLINE
  5
1D7
330
1C1
100
AcDbEntity
  8
0
100
AcDbMline
  2
STANDARD
340
18
 40
20.0
 70
     0
 71
     1
 72
     3
 73
     2
 10
23.51122502189105
 20
275.5204317064917
 30
0.0
210
0.0
220
0.0
230
1.0
 11
23.51122502189105
 21
275.5204317064917
 31
0.0
 12
0.8422942963978522
 22
-0.5390179201618876
 32
0.0
 13
0.5390179201618874
 23
0.8422942963978526
 33
0.0
 74
     2
 41
0.0
 41
0.0
 75
     0
 74
     2
 41
-20.0
 41
0.0
 75
     0
 11
70.03528966218505
 21
245.7478158083028
 31
0.0
 12
0.0
 22
-1.0
 32
0.0
 13
0.8772165981563183
 23
0.4800948238827994
 33
0.0
 74
     2
 41
0.0
 41
0.0
 75
     0
 74
     2
 41
-22.79938619724571
 41
0.0
 75
     0
 11
70.03528966218505
 21
218.8798446889547
 31
0.0
 12
0.0
 22
-1.0
 32
0.0
 13
1.0
 23
0.0
 33
0.0
 74
     2
 41
0.0
 41
0.0
 75
     0
 74
     2
 41
-20.0
 41
0.0
 75
     0
  0
TEXT
  5
1D8
330
1C1
100
AcDbEntity
  8
0
100
AcDbText
 10
195.7956502226059
 20
181.8456154606494
 30
0.0
 40
16.70171093586998
  1
asdd sdf
 50
30.00000000000054
100
AcDbText
  0
LINE
  5
1D9
330
1C1
100
AcDbEntity
  8
0
100
AcDbLine
 10
291.3665984167198
 20
-0.0000004392370485
 30
0.0
 11
363.0893343983856
 21
78.02109656384685
 31
0.0
  0
LINE
  5
1DA
330
1C1
100
AcDbEntity
  8
magenta
100
AcDbLine
 10
183.9770850644387
 20
45.36134119283238
 30
0.0
 11
229.5070081707306
 21
90.89126429912417
 31
0.0
  0
LINE
  5
1DB
330
1C1
100
AcDbEntity
  8
magenta
100
AcDbLine
 10
176.3771568274864
 20
46.74166907694925
 30
0.0
 11
231.1834197458122
 21
101.5479319952749
 31
0.0
  0
LINE
  5
1DC
330
1C1
100
AcDbEntity
  8
magenta
100
AcDbLine
 10
168.7772285905342
 20
48.12199696106606
 30
0.0
 11
232.8598313208936
 21
112.2045996914257
 31
0.0
  0
LINE
  5
1DD
330
1C1
100
AcDbEntity
  8
magenta
100
AcDbLine
 10
161.1773003535819
 20
49.50232484518291
 30
0.0
 11
185.1585607151245
 21
73.48358520672545
 31
0.0
  0
LINE
  5
1DE
330
1C1
100
AcDbEntity
  8
0
100
AcDbLine
 10
228.5078827312195
 20
84.53999116673571
 30
0.0
 11
184.1646349841179
 21
45.32727766279299
 31
0.0
  0
LINE
  5
1DF
330
1C1
100
AcDbEntity
  8
magenta
100
AcDbLine
 10
153.5773721166297
 20
50.88265272929979
 30
0.0
 11
170.2656582050102
 21
67.57093881768032
 31
0.0
  0
LINE
  5
1E0
330
1C1
100
AcDbEntity
  8
0
100
AcDbLine
 10
317.6954865570255
 20
28.64096964454843
 30
0.0
 11
317.6954865570255
 21
45.52320688293967
 31
0.0
  0
LINE
  5
1E1
330
1C1
100
AcDbEntity
  8
0
100
AcDbLine
 10
317.4161653862513
 20
28.64096964454843
 30
0.0
 11
336.8747549264587
 21
28.64096964454843
 31
0.0
  0
LINE
  5
1E2
330
1C1
100
AcDbEntity
  8
magenta
100
AcDbLine
 10
190.5213717939692
 20
87.82665240663947
 30
0.0
 11
236.2126544710569
 21
133.5179350837271
 31
0.0
  0
LINE
  5
1E3
330
1C1
100
AcDbEntity
  8
magenta
100
AcDbLine
 10
188.96341717804
 20
95.24895391177926
 30
0.0
 11
231.6403187798522
 21
137.9258555135914
 31
0.0
  0
LINE
  5
1E4
330
1C1
100
AcDbEntity
  8
magenta
100
AcDbLine
 10
187.4054625621106
 20
102.671255416919
 30
0.0
 11
225.7524413254818
 21
141.0182341802902
 31
0.0
  0
LINE
  5
1E5
330
1C1
100
AcDbEntity
  8
magenta
100
AcDbLine
 10
185.8475079461811
 20
110.0935569220587
 30
0.0
 11
219.8645638711115
 21
144.1106128469891
 31
0.0
  0
LINE
  5
1E6
330
1C1
100
AcDbEntity
  8
magenta
100
AcDbLine
 10
184.2895533302518
 20
117.5158584271984
 30
0.0
 11
213.9766864167412
 21
147.2029915136875
 31
0.0
  0
LINE
  5
1E7
330
1C1
100
AcDbEntity
  8
magenta
100
AcDbLine
 10
177.0458298472811
 20
119.252391065297
 30
0.0
 11
208.0888089623708
 21
150.2953701803866
 31
0.0
  0
LINE
  5
1E8
330
1C1
100
AcDbEntity
  8
magenta
100
AcDbLine
 10
162.9426142280116
 20
114.1294315670966
 30
0.0
 11
202.2009315080006
 21
153.3877488470854
 31
0.0
  0
LINE
  5
1E9
330
1C1
100
AcDbEntity
  8
magenta
100
AcDbLine
 10
148.839398608742
 20
109.0064720688962
 30
0.0
 11
196.3130540536301
 21
156.4801275137842
 31
0.0
  0
LINE
  5
1EA
330
1C1
100
AcDbEntity
  8
0
100
AcDbLine
 10
236.5042072436557
 20
135.3712872435769
 30
0.0
 11
228.5078827312195
 21
84.53999116673571
 31
0.0
  0
LINE
  5
1EB
330
1C1
100
AcDbEntity
  8
magenta
100
AcDbLine
 10
192.0793264098985
 20
80.40435090149975
 30
0.0
 11
234.5362428959751
 21
122.8612673875764
 31
0.0
  0
LINE
  5
1EC
330
1C1
100
AcDbEntity
  8
0
100
AcDbLine
 10
192.8878964129837
 20
76.55221664190936
 30
0.0
 11
183.4376956101268
 21
121.5742210865478
 31
0.0
  0
LINE
  5
1ED
330
1C1
100
AcDbEntity
  8
0
100
AcDbLine
 10
165.9911715236141
 20
172.4055171633889
 30
0.0
 11
236.5042072436557
 21
135.3712872435769
 31
0.0
  0
LINE
  5
1EE
330
1C1
100
AcDbEntity
  8
magenta
100
AcDbLine
 10
150.3672638238378
 20
137.4751056471995
 30
0.0
 11
178.6494216905189
 21
165.7572635138808
 31
0.0
  0
LINE
  5
1EF
330
1C1
100
AcDbEntity
  8
magenta
100
AcDbLine
 10
157.6345916678699
 20
153.7226896123009
 30
0.0
 11
172.7615442361488
 21
168.8496421805796
 31
0.0
  0
LINE
  5
1F0
330
1C1
100
AcDbEntity
  8
magenta
100
AcDbLine
 10
164.9019195119024
 20
169.9702735774021
 30
0.0
 11
166.8736667817785
 21
171.9420208472784
 31
0.0
  0
ELLIPSE
  5
1F1
330
1C1
100
AcDbEntity
  8
0
100
AcDbEllipse
 10
184.8915725149375
 20
234.4923145242664
 30
0.0
 11
-23.13231257146906
 21
-22.56329749855852
 31
0.0
210
0.0
220
0.0
230
1.0
 40
0.6121371008901675
 41
4.712388980384688
 42
8.652954555314797
  0
ENDBLK
  5
1F3
330
1C1
100
AcDbEntity
  8
0
100
AcDbBlockEnd
  0
ENDSEC
  0
SECTION
  2
ENTITIES
  0
LINE
  5
2B
330
1F
100
AcDbEntity
  8
0
  6
DASHED
 62
     5
100
AcDbLine
 10
9.813669383948763
 20
287.1968217277408
 30
0.0
 11
83.96139705882296
 21
239.9963330074648
 31
0.0
  0
MLINE
  5
2C
330
1F
100
AcDbEntity
  8
0
100
AcDbMline
  2
STANDARD
340
18
 40
20.0
 70
     0
 71
     1
 72
     3
 73
     2
 10
25.07937780604993
 20
245.0794620619433
 30
0.0
210
0.0
220
0.0
230
1.0
 11
25.07937780604993
 21
245.0794620619433
 31
0.0
 12
0.8422942963978522
 22
-0.5390179201618876
 32
0.0
 13
0.5390179201618873
 23
0.8422942963978524
 33
0.0
 74
     2
 41
0.0
 41
0.0
 75
     0
 74
     2
 41
-20.0
 41
0.0
 75
     0
 11
71.60344244634393
 21
215.3068461637544
 31
0.0
 12
0.0
 22
-1.0
 32
0.0
 13
0.8772165981563183
 23
0.4800948238827994
 33
0.0
 74
     2
 41
0.0
 41
0.0
 75
     0
 74
     2
 41
-22.79938619724571
 41
0.0
 75
     0
 11
71.60344244634393
 21
188.4388750444063
 31
0.0
 12
0.0
 22
-1.0
 32
0.0
 13
1.0
 23
0.0
 33
0.0
 74
     2
 41
0.0
 41
0.0
 75
     0
 74
     2
 41
-20.0
 41
0.0
 75
     0
  0
LINE
  5
30
330
1F
100
AcDbEntity
  8
0
  6
DASHED
 62
     5
100
AcDbLine
 10
83.96139705882296
 20
239.9963330074648
 30
0.0
 11
89.04996653285662
 21
218.9376528288125
 31
0.0
  0
LWPOLYLINE
  5
31
330
1F
100
AcDbEntity
  8
0
100
AcDbPolyline
 90
        4
 70
     1
 43
0.0
 10
121.7621990414702
 20
123.0843523073329
 10
147.1669669322874
 20
168.8433980942845
 10
101.4079211453355
 20
194.2481659851018
 10
76.0031532545183
 20
148.4891201981502
  0
ARC
  5
32
330
1F
100
AcDbEntity
  8
0
  6
DOT
 62
     1
100
AcDbCircle
 10
59.61142369158253
 20
52.35869602792277
 30
0.0
 40
63.80909051150741
100
AcDbArc
 50
184.3097270751554
 51
49.07851624934557
  0
CIRCLE
  5
33
330
1F
100
AcDbEntity
  8
0
  6
DIVIDE
 62
     3
100
AcDbCircle
 10
51.97610269541951
 20
47.56356938678139
 30
0.0
 40
21.50562342075521
  0
SPLINE
  5
34
330
1F
100
AcDbEntity
  8
0
100
AcDbSpline
210
0.0
220
0.0
230
1.0
 70
     8
 71
     3
 72
    10
 73
     6
 74
     4
 42
0.0000000001
 43
0.0000000001
 44
0.0000000001
 40
0.0
 40
0.0
 40
0.0
 40
0.0
 40
53.77719976265925
 40
94.28906360206212
 40
131.7967694737339
 40
131.7967694737339
 40
131.7967694737339
 40
131.7967694737339
 10
82.50751953962142
 20
279.2090465114075
 30
0.0
 10
108.2597708603255
 20
281.0482676154334
 30
0.0
 10
153.4119110496735
 20
284.2730252528917
 30
0.0
 10
112.5788195461997
 20
227.6267761930306
 30
0.0
 10
139.3995967690579
 20
212.4410737514211
 30
0.0
 10
152.2936158856721
 20
205.1405866717831
 30
0.0
 11
82.50751953962142
 21
279.2090465114075
 31
0.0
 11
135.5740299443696
 21
270.4951101003639
 31
0.0
 11
125.3968909963023
 21
231.2823959049139
 31
0.0
 11
152.2936158856721
 21
205.1405866717831
 31
0.0
  0
ELLIPSE
  5
35
330
1F
100
AcDbEntity
  8
0
100
AcDbEllipse
 10
184.6423793216805
 20
250.1625918079287
 30
0.0
 11
41.92873934994781
 21
-4.996859469103995
 31
0.0
210
0.0
220
0.0
230
1.0
 40
0.3636977591712051
 41
0.0
 42
6.283185307179584
  0
ELLIPSE
  5
36
330
1F
100
AcDbEntity
  8
0
100
AcDbEllipse
 10
186.4597252990964
 20
204.051344879718
 30
0.0
 11
-23.13231257146906
 21
-22.56329749855852
 31
0.0
210
0.0
220
0.0
230
1.0
 40
0.6121371008901675
 41
4.712388980384688
 42
8.652954555314797
  0
LINE
  5
37
330
1F
100
AcDbEntity
  8
0
100
AcDbLine
 10
167.559324307773
 20
141.9645475188405
 30
0.0
 11
238.0723600278146
 21
104.9303175990285
 31
0.0
  0
LINE
  5
38
330
1F
100
AcDbEntity
  8
0
100
AcDbLine
 10
238.0723600278146
 20
104.9303175990285
 30
0.0
 11
230.0760355153784
 21
54.09902152218728
 31
0.0
  0
LINE
  5
39
330
1F
100
AcDbEntity
  8
0
100
AcDbLine
 10
230.0760355153784
 20
54.09902152218728
 30
0.0
 11
185.7327877682768
 21
14.88630801824456
 31
0.0
  0
LINE
  5
3A
330
1F
100
AcDbEntity
  8
0
100
AcDbLine
 10
185.7327877682768
 20
14.88630801824456
 30
0.0
 11
137.7548456087813
 21
23.60024442928817
 31
0.0
  0
LINE
  5
3B
330
1F
100
AcDbEntity
  8
0
100
AcDbLine
 10
137.7548456087813
 20
23.60024442928817
 30
0.0
 11
194.4560491971424
 21
46.11124699736092
 31
0.0
  0
LINE
  5
3C
330
1F
100
AcDbEntity
  8
0
100
AcDbLine
 10
194.4560491971424
 20
46.11124699736092
 30
0.0
 11
185.0058483942853
 21
91.13325144199938
 31
0.0
  0
LINE
  5
3D
330
1F
100
AcDbEntity
  8
0
100
AcDbLine
 10
185.0058483942853
 20
91.13325144199938
 30
0.0
 11
137.0279074635708
 21
73.70537861991215
 31
0.0
  0
LINE
  5
3E
330
1F
100
AcDbEntity
  8
0
100
AcDbLine
 10
137.0279074635708
 20
73.70537861991215
 30
0.0
 11
167.559324307773
 21
141.9645475188405
 31
0.0
  0
HATCH
  5
51
330
1F
100
AcDbEntity
  8
0
100
AcDbHatch
 10
0.0
 20
0.0
 30
0.0
210
0.0
220
0.0
230
1.0
  2
ANSI31
 70
     0
 71
     0
 91
        1
 92
        7
 72
     0
 73
     1
 93
        8
 10
238.0723600278146
 20
104.9303175990285
 10
167.559324307773
 20
141.9645475188405
 10
137.0279074635712
 20
73.70537861991215
 10
185.0058483942853
 20
91.13325144199937
 10
194.4560491971424
 20
46.11124699736088
 10
137.7548456087813
 20
23.60024442928817
 10
185.7327877682768
 20
14.88630801824456
 10
230.0760355153783
 20
54.09902152218727
 97
        0
 75
     0
 76
     1
 52
0.0
 41
2.0
 77
     0
 78
     1
 53
45.0
 43
0.0
 44
0.0
 45
-4.490128060534575
 46
4.490128060534575
 79
     0
 47
0.7261613691931541
 98
        1
 10
194.4560491971424
 20
97.66870426891228
  0
TEXT
  5
52
330
1F
100
AcDbEntity
  8
0
100
AcDbText
 10
197.3638030067646
 20
151.404645816101
 30
0.0
 40
16.70171093586998
  1
asdd
 50
340.0
100
AcDbText
  0
MTEXT
  5
53
330
1F
100
AcDbEntity
  8
0
100
AcDbMText
 10
51.20762561381411
 20
345.890060181395
 30
0.0
 40
16.70171093586998
 41
156.2917999999999
 71
     1
 72
     5
  1
sdfsdfsdfsdfs\Pdffsdfsdf
 73
     1
 44
1.0
  0
MTEXT
  5
54
330
1F
100
AcDbEntity
  8
0
100
AcDbMText
 10
335.2233074434038
 20
345.890060181395
 30
0.0
 40
16.70171093586998
 41
156.2917999999999
 71
     1
 72
     5
  1
sdfsdfsdfsdfs\Pdffsdfsdf
 73
     1
 44
1.0
  0
TEXT
  5
55
330
1F
100
AcDbEntity
  8
0
100
AcDbText
 10
481.3794848363545
 20
151.404645816101
 30
0.0
 40
16.70171093586998
  1
asdd sdf
 50
30.0
100
AcDbText
  0
LINE
  5
57
330
1F
100
AcDbEntity
  8
0
100
AcDbLine
 10
451.5750061373628
 20
141.9645475188405
 30
0.0
 11
522.0880418574044
 21
104.9303175990285
 31
0.0
  0
LINE
  5
58
330
1F
100
AcDbEntity
  8
0
100
AcDbLine
 10
514.0917173449682
 20
54.09902152218728
 30
0.0
 11
469.7484695978666
 21
14.88630801824456
 31
0.0
  0
ELLIPSE
  5
59
330
1F
100
AcDbEntity
  8
0
100
AcDbEllipse
 10
470.4754071286862
 20
204.051344879718
 30
0.0
 11
-23.13231257146906
 21
-22.56329749855852
 31
0.0
210
0.0
220
0.0
230
1.0
 40
0.6121371008901675
 41
4.712388980384688
 42
8.652954555314797
  0
ELLIPSE
  5
5A
330
1F
100
AcDbEntity
  8
0
100
AcDbEllipse
 10
468.6580611512701
 20
250.1625918079287
 30
0.0
 11
41.92873934994781
 21
-4.996859469103995
 31
0.0
210
0.0
220
0.0
230
1.0
 40
0.3636977591712051
 41
0.0
 42
6.283185307179584
  0
LWPOLYLINE
  5
5B
330
1F
100
AcDbEntity
  8
0
100
AcDbPolyline
 90
        4
 70
     1
 43
0.0
 10
405.7778808710597
 20
123.0843523073329
 10
431.1826487618771
 20
168.8433980942845
 10
385.4236029749253
 20
194.2481659851018
 10
360.0188350841081
 20
148.4891201981502
  0
CIRCLE
  5
5D
330
1F
100
AcDbEntity
  8
magenta
100
AcDbCircle
 10
335.9917845250091
 20
47.56356938678139
 30
0.0
 40
21.50562342075521
  0
LINE
  5
5E
330
1F
100
AcDbEntity
  8
0
100
AcDbLine
 10
478.4717310267324
 20
46.11124699736092
 30
0.0
 11
469.0215302238755
 21
91.13325144199938
 31
0.0
  0
ARC
  5
5F
330
1F
100
AcDbEntity
  8
magenta
100
AcDbCircle
 10
348.5979301670289
 20
55.75752834312579
 30
0.0
 40
58.00506896094892
100
AcDbArc
 50
188.1209261236638
 51
50.58966352869019
  0
LINE
  5
60
330
1F
100
AcDbEntity
  8
0
100
AcDbLine
 10
421.7705274383709
 20
23.60024442928817
 30
0.0
 11
478.4717310267324
 21
46.11124699736092
 31
0.0
  0
LINE
  5
61
330
1F
100
AcDbEntity
  8
0
100
AcDbLine
 10
469.7484695978666
 20
14.88630801824456
 30
0.0
 11
421.7705274383709
 21
23.60024442928817
 31
0.0
  0
LINE
  5
62
330
1F
100
AcDbEntity
  8
0
100
AcDbLine
 10
421.0435892931608
 20
73.70537861991215
 30
0.0
 11
451.5750061373628
 21
141.9645475188405
 31
0.0
  0
LINE
  5
63
330
1F
100
AcDbEntity
  8
0
100
AcDbLine
 10
469.0215302238755
 20
91.13325144199938
 30
0.0
 11
421.0435892931608
 21
73.70537861991215
 31
0.0
  0
LINE
  5
64
330
1F
100
AcDbEntity
  8
magenta
100
AcDbLine
 10
293.8293512135385
 20
287.1968217277408
 30
0.0
 11
367.9770788884126
 21
239.9963330074648
 31
0.0
  0
MLINE
  5
65
330
1F
100
AcDbEntity
  8
0
100
AcDbMline
  2
STANDARD
340
18
 40
20.0
 70
     0
 71
     1
 72
     3
 73
     2
 10
309.0950596356397
 20
245.0794620619433
 30
0.0
210
0.0
220
0.0
230
1.0
 11
309.0950596356397
 21
245.0794620619433
 31
0.0
 12
0.8422942963978522
 22
-0.5390179201618876
 32
0.0
 13
0.5390179201618873
 23
0.8422942963978524
 33
0.0
 74
     2
 41
0.0
 41
0.0
 75
     0
 74
     2
 41
-20.0
 41
0.0
 75
     0
 11
355.6191242759337
 21
215.3068461637544
 31
0.0
 12
0.0
 22
-1.0
 32
0.0
 13
0.8772165981563183
 23
0.4800948238827994
 33
0.0
 74
     2
 41
0.0
 41
0.0
 75
     0
 74
     2
 41
-22.79938619724571
 41
0.0
 75
     0
 11
355.6191242759337
 21
188.4388750444063
 31
0.0
 12
0.0
 22
-1.0
 32
0.0
 13
1.0
 23
0.0
 33
0.0
 74
     2
 41
0.0
 41
0.0
 75
     0
 74
     2
 41
-20.0
 41
0.0
 75
     0
  0
SPLINE
  5
66
330
1F
100
AcDbEntity
  8
0
100
AcDbSpline
210
0.0
220
0.0
230
1.0
 70
     8
 71
     3
 72
    10
 73
     6
 74
     4
 42
0.0000000001
 43
0.0000000001
 44
0.0000000001
 40
0.0
 40
0.0
 40
0.0
 40
0.0
 40
53.77719976265928
 40
94.28906360206216
 40
131.7967694737339
 40
131.7967694737339
 40
131.7967694737339
 40
131.7967694737339
 10
366.5232013692111
 20
279.2090465114075
 30
0.0
 10
392.2754526899152
 20
281.0482676154334
 30
0.0
 10
437.4275928792633
 20
284.2730252528917
 30
0.0
 10
396.5945013757894
 20
227.6267761930306
 30
0.0
 10
423.4152785986477
 20
212.4410737514211
 30
0.0
 10
436.3092977152618
 20
205.1405866717831
 30
0.0
 11
366.5232013692111
 21
279.2090465114075
 31
0.0
 11
419.5897117739593
 21
270.4951101003639
 31
0.0
 11
409.412572825892
 21
231.2823959049139
 31
0.0
 11
436.3092977152618
 21
205.1405866717831
 31
0.0
  0
LINE
  5
67
330
1F
100
AcDbEntity
  8
magenta
100
AcDbLine
 10
367.9770788884126
 20
239.9963330074648
 30
0.0
 11
373.0656483624462
 21
218.9376528288125
 31
0.0
  0
LINE
  5
68
330
1F
100
AcDbEntity
  8
0
100
AcDbLine
 10
522.0880418574044
 20
104.9303175990285
 30
0.0
 11
514.0917173449682
 21
54.09902152218728
 31
0.0
  0
LINE
  5
90
330
1F
100
AcDbEntity
  8
magenta
100
AcDbLine
 10
450.4857541256511
 20
139.5293039328537
 30
0.0
 11
452.4575013955272
 21
141.50105120273
 31
0.0
  0
LINE
  5
91
330
1F
100
AcDbEntity
  8
magenta
100
AcDbLine
 10
443.2184262816186
 20
123.2817199677525
 30
0.0
 11
458.3453788498975
 21
138.4086725360312
 31
0.0
  0
LINE
  5
92
330
1F
100
AcDbEntity
  8
magenta
100
AcDbLine
 10
435.9510984375865
 20
107.0341360026511
 30
0.0
 11
464.2332563042676
 21
135.3162938693324
 31
0.0
  0
LINE
  5
93
330
1F
100
AcDbEntity
  8
magenta
100
AcDbLine
 10
428.6837705935543
 20
90.78655203754967
 30
0.0
 11
470.1211337586381
 21
132.2239152026335
 31
0.0
  0
LINE
  5
94
330
1F
100
AcDbEntity
  8
magenta
100
AcDbLine
 10
421.4164427495219
 20
74.5389680724482
 30
0.0
 11
476.0090112130083
 21
129.1315365359346
 31
0.0
  0
LINE
  5
95
330
1F
100
AcDbEntity
  8
magenta
100
AcDbLine
 10
434.4232332224907
 20
78.56550242434778
 30
0.0
 11
481.8968886673788
 21
126.0391578692358
 31
0.0
  0
LINE
  5
96
330
1F
100
AcDbEntity
  8
magenta
100
AcDbLine
 10
448.5264488417603
 20
83.68846192254819
 30
0.0
 11
487.7847661217493
 21
122.946779202537
 31
0.0
  0
LINE
  5
97
330
1F
100
AcDbEntity
  8
magenta
100
AcDbLine
 10
462.6296644610298
 20
88.81142142074862
 30
0.0
 11
493.6726435761195
 21
119.8544005358382
 31
0.0
  0
LINE
  5
98
330
1F
100
AcDbEntity
  8
magenta
100
AcDbLine
 10
469.8733879440005
 20
87.07488878265007
 30
0.0
 11
499.5605210304899
 21
116.7620218691391
 31
0.0
  0
LINE
  5
99
330
1F
100
AcDbEntity
  8
magenta
100
AcDbLine
 10
471.4313425599298
 20
79.65258727751031
 30
0.0
 11
505.4483984848601
 21
113.6696432024407
 31
0.0
  0
LINE
  5
9A
330
1F
100
AcDbEntity
  8
magenta
100
AcDbLine
 10
423.9613502564735
 20
23.20233885298504
 30
0.0
 11
426.0636877985302
 21
25.3046763950416
 31
0.0
  0
LINE
  5
9B
330
1F
100
AcDbEntity
  8
magenta
100
AcDbLine
 10
472.9892971758593
 20
72.23028577237059
 30
0.0
 11
511.3362759392305
 21
110.5772645357418
 31
0.0
  0
LINE
  5
9C
330
1F
100
AcDbEntity
  8
magenta
100
AcDbLine
 10
431.5612784934258
 20
21.82201096886821
 30
0.0
 11
440.9565903086446
 21
31.21732278408673
 31
0.0
  0
LINE
  5
9D
330
1F
100
AcDbEntity
  8
magenta
100
AcDbLine
 10
474.5472517917887
 20
64.80798426723082
 30
0.0
 11
517.2241533936008
 21
107.484885869043
 31
0.0
  0
LINE
  5
9E
330
1F
100
AcDbEntity
  8
magenta
100
AcDbLine
 10
439.1612067303783
 20
20.44168308475136
 30
0.0
 11
455.8494928187588
 21
37.12996917313189
 31
0.0
  0
LINE
  5
9F
330
1F
100
AcDbEntity
  8
magenta
100
AcDbLine
 10
476.1052064077179
 20
57.38568276209104
 30
0.0
 11
521.7964890848056
 21
103.0769654391787
 31
0.0
  0
LINE
  5
A0
330
1F
100
AcDbEntity
  8
magenta
100
AcDbLine
 10
446.7611349673306
 20
19.06135520063448
 30
0.0
 11
470.7423953288731
 21
43.04261556217702
 31
0.0
  0
LINE
  5
A1
330
1F
100
AcDbEntity
  8
magenta
100
AcDbLine
 10
477.6631610236471
 20
49.96338125695132
 30
0.0
 11
520.1200775097238
 21
92.42029774302798
 31
0.0
  0
LINE
  5
A2
330
1F
100
AcDbEntity
  8
magenta
100
AcDbLine
 10
454.3610632042828
 20
17.68102731651763
 30
0.0
 11
518.4436659346423
 21
81.76363004687727
 31
0.0
  0
LINE
  5
A3
330
1F
100
AcDbEntity
  8
magenta
100
AcDbLine
 10
461.9609914412351
 20
16.30069943240082
 30
0.0
 11
516.7672543595609
 21
71.10696235072651
 31
0.0
  0
LINE
  5
A4
330
1F
100
AcDbEntity
  8
magenta
100
AcDbLine
 10
469.5609196781874
 20
14.92037154828396
 30
0.0
 11
515.0908427844792
 21
60.45029465457574
 31
0.0
  0
ARC
  5
AA
330
1F
100
AcDbEntity
  8
0
  6
DIVIDE
 62
   210
100
AcDbCircle
 10
108.1093538981939
 20
96.19787945238785
 30
0.0
 40
30.18221579329297
100
AcDbArc
 50
128.8912673582961
 51
242.2669761941552
  0
ARC
  5
AB
330
1F
100
AcDbEntity
  8
magenta
100
AcDbCircle
 10
391.3369203378136
 20
96.19787945238785
 30
0.0
 40
30.18221579329297
100
AcDbArc
 50
128.8912673582961
 51
242.2669761941552
  0
LINE
  5
13E
330
1F
100
AcDbEntity
  8
0
 62
     2
100
AcDbLine
 10
-4.017239601002525
 20
47.56356938678142
 30
0.0
 11
51.97610269541951
 21
47.56356938678139
 31
0.0
  0
LINE
  5
13F
330
1F
100
AcDbEntity
  8
magenta
100
AcDbLine
 10
291.1745284758526
 20
47.56356938678144
 30
0.0
 11
335.9917845250091
 21
47.56356938678139
 31
0.0
  0
LINE
  5
140
330
1F
100
AcDbEntity
  8
magenta
100
AcDbLine
 10
335.9917845250091
 20
47.56356938678139
 30
0.0
 11
377.2915572074571
 21
69.4828289240933
 31
0.0
  0
LINE
  5
141
330
1F
100
AcDbEntity
  8
0
  6
DIVIDE
 62
     4
100
AcDbLine
 10
94.0639907678376
 20
69.4828289240933
 30
0.0
 11
51.97610269541951
 21
47.56356938678139
 31
0.0
  0
LINE
  5
183
330
1F
100
AcDbEntity
  8
0
100
AcDbLine
 10
51.97610269541951
 20
47.56356938678139
 30
0.0
 11
255.4905249471571
 21
-30.44097008378548
 31
0.0
  0
LINE
  5
184
330
1F
100
AcDbEntity
  8
0
100
AcDbLine
 10
255.4905249471571
 20
-30.44097008378548
 30
0.0
 11
335.9917845250091
 21
47.56356938678139
 31
0.0
  0
LINE
  5
185
330
1F
100
AcDbEntity
  8
0
100
AcDbLine
 10
335.9917845250091
 20
47.56356938678139
 30
0.0
 11
576.9504330304685
 21
-30.44097008378548
 31
0.0
  0
LINE
  5
186
330
1F
100
AcDbEntity
  8
0
100
AcDbLine
 10
576.9504330304685
 20
-30.44097008378548
 30
0.0
 11
648.6731690121342
 21
47.58012691929842
 31
0.0
  0
LINE
  5
187
330
1F
100
AcDbEntity
  8
0
100
AcDbLine
 10
603.0
 20
-1.8
 30
0.0
 11
622.4585895402074
 21
-1.8
 31
0.0
  0
LINE
  5
188
330
1F
100
AcDbEntity
  8
0
100
AcDbLine
 10
603.2793211707741
 20
-1.8
 30
0.0
 11
603.2793211707741
 21
15.08223723839124
 31
0.0
  0
LWPOLYLINE
  5
1BD
330
1F
100
AcDbEntity
  8
0
  6
DASHED
 62
    92
100
AcDbPolyline
 90
        6
 70
     1
 43
3.0
 10
5.121646558977772
 20
204.9603364257198
 10
56.15799632316566
 20
149.1231376068715
 10
54.94284572517017
 20
112.7075729587666
 42
-1.541015258735114
 10
7.551949809000234
 20
135.7707638255049
 10
25.77921699505827
 20
122.418390044138
 42
1.843358517313878
 10
26.99436759305376
 20
144.2677290641859
 42
-0.746559577894176
  0
LWPOLYLINE
  5
1BF
330
1F
100
AcDbEntity
  8
blue
100
AcDbPolyline
 90
        6
 70
     1
 43
3.0
 10
300.3134146358329
 20
204.9603364257198
 10
351.3497644000208
 20
149.1231376068715
 10
350.1346138020253
 20
112.7075729587666
 42
-1.541015258735114
 10
302.7437178858554
 20
135.7707638255049
 10
320.9709850719134
 20
122.418390044138
 42
1.843358517313878
 10
322.1861356699089
 20
144.2677290641859
 42
-0.746559577894176
  0
INSERT
  5
1F4
330
1F
100
AcDbEntity
  8
0
100
AcDbBlockReference
  2
A$C50A11958
 10
598.2652191008739
 20
-30.42441211203139
 30
0.0
  0
ENDSEC
  0
SECTION
  2
OBJECTS
  0
DICTIONARY
  5
C
330
0
100
AcDbDictionary
281
     1
  3
ACAD_GROUP
350
D
  3
ACAD_LAYOUT
350
1A
  3
ACAD_MLINESTYLE
350
17
  3
ACAD_PLOTSETTINGS
350
19
  3
ACAD_PLOTSTYLENAME
350
E
  3
AcDbVariableDictionary
350
83
  0
DICTIONARY
  5
D
102
{ACAD_REACTORS
330
C
102
}
330
C
100
AcDbDictionary
281
     1
  0
DICTIONARY
  5
1A
102
{ACAD_REACTORS
330
C
102
}
330
C
100
AcDbDictionary
281
     1
  3
Layout1
350
1E
  3
Layout2
350
26
  3
Model
350
22
  0
DICTIONARY
  5
17
102
{ACAD_REACTORS
330
C
102
}
330
C
100
AcDbDictionary
281
     1
  3
Standard
350
18
  0
DICTIONARY
  5
19
102
{ACAD_REACTORS
330
C
102
}
330
C
100
AcDbDictionary
281
     1
  0
ACDBDICTIONARYWDFLT
  5
E
102
{ACAD_REACTORS
330
C
102
}
330
C
100
AcDbDictionary
281
     1
  3
Normal
350
F
100
AcDbDictionaryWithDefault
340
F
  0
DICTIONARY
  5
83
102
{ACAD_REACTORS
330
C
102
}
330
C
100
AcDbDictionary
281
     1
  3
DIMASSOC
350
85
  3
HIDETEXT
350
84
  0
LAYOUT
  5
1E
102
{ACAD_REACTORS
330
1A
102
}
330
1A
100
AcDbPlotSettings
  1

  2
HP LaserJet 4P
  4

  6

 40
0.0
 41
0.0
 42
0.0
 43
0.0
 44
0.0
 45
0.0
 46
0.0
 47
0.0
 48
0.0
 49
0.0
140
0.0
141
0.0
142
1.0
143
1.0
 70
   688
 72
     0
 73
     0
 74
     5
  7

 75
    16
147
1.0
148
0.0
149
0.0
100
AcDbLayout
  1
Layout1
 70
     1
 71
     1
 10
0.0
 20
0.0
 11
420.0
 21
297.0
 12
0.0
 22
0.0
 32
0.0
 14
1.000000000000000E+20
 24
1.000000000000000E+20
 34
1.000000000000000E+20
 15
-1.000000000000000E+20
 25
-1.000000000000000E+20
 35
-1.000000000000000E+20
146
0.0
 13
0.0
 23
0.0
 33
0.0
 16
1.0
 26
0.0
 36
0.0
 17
0.0
 27
1.0
 37
0.0
 76
     0
330
1B
  0
LAYOUT
  5
26
102
{ACAD_REACTORS
330
1A
102
}
330
1A
100
AcDbPlotSettings
  1

  2
HP LaserJet 4P
  4

  6

 40
0.0
 41
0.0
 42
0.0
 43
0.0
 44
0.0
 45
0.0
 46
0.0
 47
0.0
 48
0.0
 49
0.0
140
0.0
141
0.0
142
1.0
143
1.0
 70
   688
 72
     0
 73
     0
 74
     5
  7

 75
    16
147
1.0
148
0.0
149
0.0
100
AcDbLayout
  1
Layout2
 70
     1
 71
     2
 10
0.0
 20
0.0
 11
12.0
 21
9.0
 12
0.0
 22
0.0
 32
0.0
 14
0.0
 24
0.0
 34
0.0
 15
0.0
 25
0.0
 35
0.0
146
0.0
 13
0.0
 23
0.0
 33
0.0
 16
1.0
 26
0.0
 36
0.0
 17
0.0
 27
1.0
 37
0.0
 76
     0
330
23
  0
LAYOUT
  5
22
102
{ACAD_REACTORS
330
1A
102
}
330
1A
100
AcDbPlotSettings
  1

  2
HP LaserJet 4P
  4

  6

 40
0.0
 41
0.0
 42
0.0
 43
0.0
 44
0.0
 45
0.0
 46
0.0
 47
0.0
 48
0.0
 49
0.0
140
0.0
141
0.0
142
1.0
143
1.0
 70
  1712
 72
     0
 73
     0
 74
     0
  7

 75
     0
147
1.0
148
0.0
149
0.0
100
AcDbLayout
  1
Model
 70
     1
 71
     0
 10
0.0
 20
0.0
 11
12.0
 21
9.0
 12
0.0
 22
0.0
 32
0.0
 14
0.0
 24
0.0
 34
0.0
 15
0.0
 25
0.0
 35
0.0
146
0.0
 13
0.0
 23
0.0
 33
0.0
 16
1.0
 26
0.0
 36
0.0
 17
0.0
 27
1.0
 37
0.0
 76
     0
330
1F
  0
MLINESTYLE
  5
18
102
{ACAD_REACTORS
330
17
102
}
330
17
100
AcDbMlineStyle
  2
STANDARD
 70
     0
  3

 62
   256
 51
90.0
 52
90.0
 71
     2
 49
0.5
 62
   256
  6
BYLAYER
 49
-0.5
 62
   256
  6
BYLAYER
  0
ACDBPLACEHOLDER
  5
F
102
{ACAD_REACTORS
330
E
102
}
330
E
  0
DICTIONARYVAR
  5
85
102
{ACAD_REACTORS
330
83
102
}
330
83
100
DictionaryVariables
280
     0
  1
2
  0
DICTIONARYVAR
  5
84
102
{ACAD_REACTORS
330
83
102
}
330
83
100
DictionaryVariables
280
     0
  1
1
  0
ENDSEC
  0
EOF
